а так же табы известных мелодий для шестиструнной гитары
Аккорды Iron Maiden — Hooks In You
Filed under: Аккорды andТекст

Дополнительно

«Рено-10» (Франция 1928 г.)
cross-roads.ru
Steven Matthiesen - Essential words for the TOEFL (test of English as a foreign language) 3rd, 2004 год
store.cross-roads.ru
Дёблин Альфред - Три прыжка Ван Луня. Китайский роман, 2006 год
store.cross-roads.ru

Iron Maiden - Hooks In You

Riff 1:
E|-----------------------------------|
B|-----------------------------------|
G|-----------------------------------|
D|-----9-----9-----7-----7-------7-6-|
A|-----7-----7-----5-----4-----------|
E|-0-0---0-0---0-0---0-0-------0-----|

E|-------------------------------|
B|-------------------------------|
G|-------------------------------|
D|-----9-----9---------------7-6-|
A|-----7-----7-------5---7-5-----|
E|-0-0---0-0---0-5-7---7---------|

Chorus:
Hooks in you, hooks in me, hooks in
E|-------------------------------|
B|-5-5-5-4-----5-5-5-4-----5-5-4-|
G|-4-4-4-4-----4-4-4-4-----4-4-4-|
D|-4-4-4-4-----4-4-4-4-----4-4-4-|
A|-2-2-2-2-----2-2-2-2-----2-2-2-|
E|-------------------------------|

the ceiling for the well hung feeling
E|-------------------------------|
B|-5-5-5-4-----5-5-5-4-----5-5-4-|
G|-4-4-4-4-----4-4-4-4-----4-4-4-|
D|-4-4-4-4-----4-4-4-4-----4-4-4-|
A|-0-0-0-0-----0-0-0-0-----0-0-0-|
E|-------------------------------|

No big deal, no big sin, strung up
E|-------------------------------|
B|-5-5-5-4-----5-5-5-4-----5-5-4-|
G|-4-4-4-4-----4-4-4-4-----4-4-4-|
D|-4-4-4-4-----4-4-4-4-----4-4-4-|
A|-2-2-2-2-----2-2-2-2-----2-2-2-|
E|-------------------------------|

on on love I got the hooks screwed in
E|-------------------------------|
B|-5-5-5-4-----5-5-5-4-----5-5-4-|
G|-4-4-4-4-----4-4-4-4-----4-4-4-|
D|-4-4-4-4-----4-4-4-4-----4-4-4-|
A|-0-0-0-0-----0-0-0-0-----0-0-0-|
E|-------------------------------|

Hooks in you, hooks in me, hooks in
E|-------------------------------|
B|-5-5-5-4-----5-5-5-4-----5-5-4-|
G|-4-4-4-4-----4-4-4-4-----4-4-4-|
D|-4-4-4-4-----4-4-4-4-----4-4-4-|
A|-2-2-2-2-----2-2-2-2-----2-2-2-|
E|-------------------------------|

the ceiling for the well hung feeling
E|-------------------------------|
B|-5-5-5-4-----5-5-5-4-----5-5-4-|
G|-4-4-4-4-----4-4-4-4-----4-4-4-|
D|-4-4-4-4-----4-4-4-4-----4-4-4-|
A|-0-0-0-0-----0-0-0-0-----0-0-0-|
E|-------------------------------|

No big deal, no big sin, strung up
E|-------------------------------|
B|-5-5-5-4-----5-5-5-4-----5-5-4-|
G|-4-4-4-4-----4-4-4-4-----4-4-4-|
D|-4-4-4-4-----4-4-4-4-----4-4-4-|
A|-2-2-2-2-----2-2-2-2-----2-2-2-|
E|-------------------------------|

on on love I got the hooks screwed in
E|-------------------------------|
B|-2---------------------------2-|
G|-2---------------4-2-2-4-2-2-2-|
D|-2---------------4-2-2-4-2-2-2-|
A|-0---------------------------0-|
E|-------------------------------|

Riff 3:
   Hooks in you I got those hooks in you Hooks in you in you
E|-------------------------------------------------------|
B|-------------------------------------------------------|
G|-9------------5------------------------2---------------|
D|-9------------5------------------------2-------------3-|
A|-7------------3------------------------0-------------3-|
E|-----------------------------------------------------1-|

   Hooks in you     I got those hooks in you
E|--------------------|
B|--------------------|
G|-9----------------5-|
D|-9----------------5-|
A|-7----------------3-|
E|--------------------|

   Hooks in you in you
E|----------------------------------------------|
B|----------------------------------------------|
G|-2--------------------------------------------|
D|-2------------3-------------------------------|
A|-0------------3-------------------------------|
E|--------------1-1-1-1-1-1-1-1-1-1-1-1-1-1-1-1-|

Solo-riff:
E|---------------------------------|
B|---------------------------------|
G|---------------------------------|
D|-9-------------------------------|
A|-7-7-7-7-7-7-7-7-7-7-7-7-7-7-7-7-|
E|---------------------------------|

E|---------------------------------|
B|---------------------------------|
G|---------------------------------|
D|-5-------------------------------|
A|-3-3-3-3-3-3-3-3-3-3-3-3-3-3-3-3-|
E|---------------------------------|

E|---------------------------------|
B|---------------------------------|
G|---------------------------------|
D|-2-------------------------------|
A|-0-0-0-0-0-0-0-0-0-0-0-0-0-0-0-0-|
E|---------------------------------|

E|------------------------------|
B|------------------------------|
G|------------------------------|
D|------------------------------|
A|-3-----3-----3-----3-----3--3-|
E|-1-1-1-1-1-1-1-1-1-1-1-1-1--1-|

E|---------------------------------|
B|---------------------------------|
G|---------------------------------|
D|-9-------------------------------|
A|-7-7-7-7-7-7-7-7-7-7-7-7-7-7-7-7-|
E|---------------------------------|

E|---------------------------------|
B|---------------------------------|
G|---------------------------------|
D|-5-------------------------------|
A|-3-3-3-3-3-3-3-3-3-3-3-3-3-3-3-3-|
E|---------------------------------|

E|---------------------------------|
B|---------------------------------|
G|---------------------------------|
D|-2-------------------------------|
A|-0-0-0-0-0-0-0-0-0-0-0-0-0-0-0-0-|
E|---------------------------------|

E|------------------------------|
B|------------------------------|
G|------------------------------|
D|------------------------------|
A|-3-----3-----3-----3-----3--3-|
E|-1-1-1-1-1-1-1-1-1-1-1-1-1--1-|

E|---------------------------------|
B|---------------------------------|
G|---------------------------------|
D|-6-------------------------------|
A|-4-4-4-4-4-4-4-4-4-4-4-4-4-4-4-4-|
E|---------------------------------|

E|---------------------------------|
B|---------------------------------|
G|---------------------------------|
D|-2-------------------------------|
A|-0-0-0-0-0-0-0-0-0-0-0-0-0-0-0-0-|
E|---------------------------------|

E|---------------------------------|
B|---------------------------------|
G|---------------------------------|
D|---------------------------------|
A|-4-------------------------------|
E|-2-2-2-2-2-2-2-2-2-2-2-2-2-2-2-2-|

E|------------------------------|
B|------------------------------|
G|------------------------------|
D|-2-----2-----2-----2-----2--2-|
A|-0-0-0-0-0-0-0-0-0-0-0-0-0--0-|
E|------------------------------|

Riff 4:
   Hooks in you
E|---------------------------------|
B|---------------------------------|
G|---------------------------------|
D|-9-------------------------------|
A|-7-7-7-7-7-7-7-7-7-7-7-7-7-7-7-7-|
E|---------------------------------|

  I got those hooks in you
E|---------------------------------|
B|---------------------------------|
G|---------------------------------|
D|-5-------------------------------|
A|-3-3-3-3-3-3-3-3-3-3-3-3-3-3-3-3-|
E|---------------------------------|

   Hooks in you
E|---------------------------------|
B|---------------------------------|
G|---------------------------------|
D|-2-------------------------------|
A|-0-0-0-0-0-0-0-0-0-0-0-0-0-0-0-0-|
E|---------------------------------|

  in you
E|---------------------------------|
B|---------------------------------|
G|---------------------------------|
D|---------------------------------|
A|-3-------------------------------|
E|-1-1-1-1-1-1-1-1-1-1-1-1-1-1-1-1-|

   Hooks in you
E|------------------------------|
B|------------------------------|
G|------------------------------|
D|-9-----9-----9-----9-----9--9-|
A|-7-7-7-7-7-7-7-7-7-7-7-7-7--7-|
E|------------------------------|

   I got those hooks in you
E|------------------------------|
B|------------------------------|
G|------------------------------|
D|-5-----5-----5-----5-----5--5-|
A|-3-3-3-3-3-3-3-3-3-3-3-3-3--3-|
E|------------------------------|

   Hooks in you
E|------------------------------|
B|------------------------------|
G|------------------------------|
D|-2-----2-----2-----2-----2--2-|
A|-0-0-0-0-0-0-0-0-0-0-0-0-0--0-|
E|------------------------------|

  in you
E|------------------------------|
B|------------------------------|
G|------------------------------|
D|------------------------------|
A|-3-----3-----3-----3-----3--3-|
E|-1-1-1-1-1-1-1-1-1-1-1-1-1--1-|

E|---------------------------------|
B|---------------------------------|
G|---------------------------------|
D|-7-6---7-6---7-6---7-6---7-6---9-|
A|-----7-----7-----7-----7----7--7-|
E|---------------------------------|

Songstructure:
Riff 1 (6 times)
Chorus
Riff 1 (4 times)
Chorus
Riff 3
Solo-riff
Riff 1 (2 times)
Chorus
Riff 4

Lyrics:

I got the keys to view at number 22
Behind my Green doors there's nothing to see
Is that a future What can a creature
who've been hanging around waiting for a girl like me
Stone cold sober and sitting in silence, laid
back and looking for sympathy
I like a girl who knows where she's bound
I don't like girls who've been hanging around

Hooks in you, hooks in me, hooks in the ceiling
For that well hung feeling
No big deal, no big sin, strung up on love I
Got the hooks screwed in

She's tied up she can't come to the phone,
You must have got your wires crossed cos she ain't home
Knock on wood-you know I like that sound
She never could keep her feet on the ground

Hooks in you, hooks in me, hooks in the ceiling
For that well hung feeling
No big deal, no big sin, strung up on love I
Got the hooks screwed in

Hooks in you
I got those hooks in you
Hooks in you
in you

Right on the money got it wrapped up tight
New ideas for the decor tonight
Gonna make this house a preservation zone
Gonna set her in concrete set her up on her own

Hooks in you, hooks in me, hooks in the ceiling
For that well hung feeling
No big deal, no big sin, strung up on love I
Got the hooks screwed in

Hooks in you
I got those hooks in you
Hooks in you
in you

Оцените качество подборки аккордов:
1 Star2 Stars3 Stars4 Stars5 Stars (No Ratings Yet)
Загрузка...
guitarist @ 04:16

Нет комментариев, станьте первым

Leave a comment

(required)

(required)




RSS Feed for comments | TrackBack URI

Instruction for comments :

You can use these tags:
XHTML: <a href="" title=""> <abbr title=""> <acronym title=""> <b> <blockquote cite=""> <cite> <code> <del datetime=""> <em> <i> <q cite=""> <s> <strike> <strong>