а так же табы известных мелодий для шестиструнной гитары
Табы Limp Bizkit — Stuck
Filed under: Табы
Теги: ,

Дополнительно

ул. Куйбышева, 69
cross-roads.ru
Генератор Календарей
soft.masterit.ru
WinRAR
soft.masterit.ru

Limp Bizkit - Stuck

intro

  bass
D|-----32~-|-----3~2-| play 2
A|---1-----|---1-----| times
D|-3-------|-3-------|

 verse

 bass
D|-----32~-|-----3~2-|
A|---1-----|---1-----|
D|-3-------|-3-------|

 chorus

 Gtr.
|-2-0-3-0-2-0^3-2-3-2-| play 3
|-2-0-3-0-2-0^3-2-3-2-| times

|-2-0-3-0-2-0^3-2-3-2-|-6-5-(*)-(*)-|
|-2-0-3-0-2-0^3-2-3-2-|-6-5-(*)-(*)-|


|-2-0-3-0^2^3-2--6-5--(*)-(*)-| play 7
|-2-0-3-0^2^3-2--6-5--(*)-(*)-| times

|-2-0-3-0^2^3-2--6-5-|-3-3--3-3--3-3--5-|
|-2-0-3-0^2^3-2--6-5-|-3-3--3-3--3-3--5-|

 verse

 chorus

 vstavka

 bass
|---1-0-----------| play 8
|-3-----6-5-3-5-6-| times

  Gtr.
|-6-0-6-0-6-| play 4 times

|-6-0-6-0-6-0-6-5-6-| play 4 times

|-6-0-6-0-6-0-6-5-6-| play 8
|-6-0-6-0-6-0-6-5-6-| times?

 chorus
Оцените качество подборки аккордов:
1 Star2 Stars3 Stars4 Stars5 Stars (No Ratings Yet)
Загрузка...
guitarist @ 04:38

Нет комментариев, станьте первым

Leave a comment

(required)

(required)




RSS Feed for comments | TrackBack URI

Instruction for comments :

You can use these tags:
XHTML: <a href="" title=""> <abbr title=""> <acronym title=""> <b> <blockquote cite=""> <cite> <code> <del datetime=""> <em> <i> <q cite=""> <s> <strike> <strong>