а так же табы известных мелодий для шестиструнной гитары
Аккорды Metallica — Last Carress
Filed under: Аккорды andТекст

Дополнительно

Вайма
stroitelstvo-domov.net
Идея плагина - "Полноценная страница автора" (Author's Advanced Page)
masterit.ru
Фирма грамзаписи Никитин - Audio CD. Русские народные песни. Песни для детей
store.cross-roads.ru

Metallica - Last Carress

D|-5--------------------------5---------------------10-12-|
A|-3---------------------3-5--3---------------------8--10-|
E|-----------------------1-3------------------------------|

   Doesn`t matter much to me... as long as...
   F                 D                C    C
E|-------------------------------------------------------------|
B|-------------------------------------------------------------|
G|-------------------------------------------------------------|
D|-10----------------7----------------5----5-5-5-5-5-5-5-5-5-5-|
A|-8-----------------5----------------3----3-3-3-3-3-3-3-3-3-3-|
E|-------------------------------------------------------------|
   F   G  C   C . . . . . . . . .       F  G  G
E|----------------------------------------------|
B|----------------------------------------------|
G|----------------------------------------------|
D|-10-12--5---5-5-5-5-5-5-5-5-5-5---------12-12-|
A|-8--10--3---3-3-3-3-3-3-3-3-3-3---6h7h8s10-10-|
E|----------------------------------------------|

I got something to say              I raped your mother today
  C C . . . . . . . .    F  G   C C . . . . . . . . .   F  G
E|-------------------------------------------------------------|
B|-------------------------------------------------------------|
G|-------------------------------------------------------------|
D|-5-5-5-5-5-5-5-5-5-5-5--10-12--5-5-5-5-5-5-5-5-5-5-5---10-12-|
A|-3-3-3-3-3-3-3-3-3-3-3--8--10--3-3-3-3-3-3-3-3-3-3-3---8--10-|
E|-------------------------------------------------------------|

Doesn`t matter much to me as long as.......................
   F  F         D D            C C               B/C B/C
E|-------------------------------------------------------|
B|-------------------------------------------------------|
G|-------------------------------------------------------|
D|-10-10--------7-7------------5-5---------------4s5-4s5-|
A|-8--8---------5-5------------3-3---------------2s3-2s3-|
E|-------------------------------------------------------|

  c/o
   Who knows if death ..... Is waiting for your     breath
   F  F          D D         D  E . . . . . . . .    D  C
E|--------------------------------------------------------|
B|--------------------------------------------------------|
G|--------------------------------------------------------|
D|-10-10---------7-7---------7--9-9-9-9-9-9-9-9-9----7--5-|
A|-8--8----------5-5---------5--7-7-7-7-7-7-7-7-7----5--3-|
E|--------------------------------------------------------|

  Cause we   get    one last caress
E|-------------------------------------------------------------|
B|-------------------------------------------------------------|
G|-------------------------------------------------------------|
D|-10-10------7-7---------5--5-5-5-5-5-5-5-5-5-5---------12-12-|
A|-8--8-------5-5---------3--3-3-3-3-3-3-3-3-3-3---6h7h8s10-10-|
E|-------------------------------------------------------------|

E|-------------------------------------------------------------|
B|-------------------------------------------------------------|
G|-------------------------------------------------------------|
D|-5--5-5-5-5-5-5-5-5-5-5-10-12--5--5-5-5-5-5-5-5-5-5-5--10-12-|
A|-3--3-3-3-3-3-3-3-3-3-3-8--10--3--3-3-3-3-3-3-3-3-3-3--8--10-|
E|-------------------------------------------------------------|

E||--------------------------|
B||--------------------------| Back to c/o and repeat till
G||--------------------------|  strumming hand hurts or
D||-10-10--7-7--5-5--4s5-4s5-|  pick breaks or whichever comes
A||-8--8---5-5--3-3--2s3-2s3-|  first...
E||--------------------------|

Оцените качество подборки аккордов:
1 Star2 Stars3 Stars4 Stars5 Stars (No Ratings Yet)
Загрузка...
guitarist @ 04:00

Нет комментариев, станьте первым

Leave a comment

(required)

(required)




RSS Feed for comments | TrackBack URI

Instruction for comments :

You can use these tags:
XHTML: <a href="" title=""> <abbr title=""> <acronym title=""> <b> <blockquote cite=""> <cite> <code> <del datetime=""> <em> <i> <q cite=""> <s> <strike> <strong>