а так же табы известных мелодий для шестиструнной гитары
Аккорды Metallica — Master Of Puppets
Filed under: Аккорды andТекст

Дополнительно

О «русском Windows» под другим углом
masterit.ru
Волков Алексей Алексеевич - Командор, 2006 год
store.cross-roads.ru
Джевел матч 3
games.parnas.info

Metallica - Master Of Puppets

E||---|-------------|
B||---|-------------|
G||-9-|-7----6----5-|
D||-9-|-7----6----5-|
A||-7-|-5----4----3-|
E||-0-|-------------|

E|-------------------------|---------|------------------------|
B|-------------------------|---------|------------------------|
G|*------------------------|-7--6--5-|------------------------|
D|*------------------------|-7--6--5-|------------------------|
A|--------7--------6-------|-5--4--3-|------------------------|
E|--0--0-----0--0-----0--0-|---------|-0--0--7--0--0--6--0--0-|

                          3x
E|--------------------------||--------------------------|
B|--------------------------||--------------------------|
G|-------------------------*||*-------------------------|
D|-------------------------*||*-------------------------|
A|--------------------------||---------2--------3-------|
E|-5--0--4--0--3--0--2--0---||---0--1-----0--1-----0--1-|

E|------------------------|------------------------|
B|------------------------|------------------------|
G|------------------------|------------------------|
D|------------------------|------------------------|
A|-4--------3--------2--2-|-------2--------3-------|
E|----0--1-----0--1-------|-0--1-----0--1-----1--0-|

E|-----------------------||--------------------------|
B|-----------------------||--------------------------|
G|----------------------*||*-------------------------|
D|----------------------*||*-------------------------|
A|-5-4-----5-4-----5-4---||---------2--------3-------|
E|-3-2--0--3-2--0--3-2---||---0--1-----0--1-----0--1-|

E|-----------------|---------------------|---------------------|
B|-----------------|---------------------|---------------------|
G|-----------------|---------------------|-------------------4-|
D|-----------------|---------------------|-------------------4-|
A|-4-----3-----2-2-|-----2-------3-------|-4--------3--------2-|
E|---0-1---0-1-----|-0-1---0--1-----0--1-|----0--1-----1--0----|

E|------------------------|------------------------|
B|------------------------|------------------------|
G|------------------------|------------------------|
D|------------------------|------------------------|
A|-------2--------3-------|-4--------3--------2--2-|
E|-0--1-----0--1-----0--1-|----0--1-----0--1-------|

E|------------------------|-----------------------||
B|------------------------|-----------------------||
G|------------------------|----------------------*||
D|------------------------|----------------------*||
A|-------2--------3-------|-5-4-----5-4-----5-4---||
E|-0--1-----0--1-----1--0-|-3-2--0--3-2--0--3-2---||

E|-----------------------|----|
B|-----------------------|----|
G|-----------------------|----|
D|-----------------------|--2-|
A|--5-4-----5-4-----5-4--|--2-|
E|--3-2--0--3-2--0--3-2--|--0-|

E|--------------------------|-----------------------|
B|--------------------------|-----------------------|
G|*-------------------------|-----------------------|
D|*-------------------------|-----------------------|
A|--------------------------|----5/-7-----8-7--5/-7-|
E|---0--0--0--0--0--0--0--0-|-0--3/-5--0--6-5--3/-5-|

                                           5x
E|------------------------|-----------------||-----------------|
B|------------------------|-----------------||-----------------|
G|------------------------|----------------*||-----------------|
D|------------------------|----------------*||-----------------|
A|------------------------|----5/-7--5/-7---||-----------------|
E|-0--0--0--0--0--0--0--0-|-0--3/-5--3/-5---||-2-2-2-2-2-2-2-2-|

E|--------------------|------------------------|---------------|
B|--------------------|------------------------|---------------|
G|--------------------|------------------------|---------------|
D|----4--4--5-4--4--4-|------------------------|----4-----4----|
A|----0--2--3-2--0--2-|------------------------|----0h-2--0h-2-|
E|-2------------------|-2--2--2--2--2--2--2--2-|-2-------------|

E|----------------------|--------------------|-----------------|
B|----------------------|--------------------|-----------------|
G|----------------------|--------------------|-----------------|
D|----------------------|----4--4--5-4--4--4-|-----------------|
A|----------------------|----0--2--3-2--0--2-|-----------------|
E|-2-2-2--2--2--2--2--2-|-2------------------|-2-2-2-2-2-2-2-2-|

E|-------------|--------------------||-------------------------|
B|-------------|--------------------||-------------------------|
G|-------------|-4-4-4-4-4-4--4--4--||*--9-----------7----9----|
D|---4----4----|-4-4-4-4-4-4--4--4--||*--9-----------7----9----|
A|---0h-2-0h-2-|-2-2-2-2-2-2--2--2--||---7-----------5----7----|
E|-2-----------|--------------------||---0--0--0--0------------|
                                                                              2x
E|--------------------|-------------------|-------------------||
B|--------------------|-------------------|-------------------||
G|--------------------|-------------------|-------------8----*||
D|-------9------------|-------------10--9-|-------------8--9-*||
A|-7--9-----10-9h-10~-|-------------10--9-|-------------6--9--||
E|--------------------|-8--8--8--8--8---7-|-8--8--8--8-----7--||

E|-------------------|---------------------|-------------------|
B|-------------------|---------------------|-------------------|
G|-9-----------7---9-|---------------------|-------------------|
D|-9-----------7---9-|-------9-------------|-------------10--9-|
A|-7-----------5---7-|-7--9-----10--9h-10~-|-------------10--9-|
E|-0--0--0--0--------|---------------------|-8--8--8--8--8---7-|

E|------------------------|--------------------|---------|
B|------------------------|--------------------|---------|
G|------------------------|--4----4------------|--2----2-|
D|------------------------|--2----2------------|--3----3-|
A|--9--7--6----6----------|--2----2------------|--3----3-|
E|----------------8--7----|--0----0------------|--1----1-|

E|----------------------|--------------|----|
B|----------------------|--------------|--0-|
G|--4-------------------|--------------|--0-|
D|--2-------------------|--------------|--0-|
A|--2-------------------|--------------|--x-|
E|--0----------0--0--0--|--2p-0--0--0--|--3-|

E|----------------------|--------------|----|
B|----------------------|--------------|----|
G|--5-------------------|--------------|--2-|
D|--5-------------------|--4-----------|--2-|
A|--3----------0--0--0--|--2--0--0--0--|--0-|
E|----------------------|--------------|----|

E|--2-------------------|--------------|----|
B|--3-------------------|--------------|--4-|
G|--2-------------------|--------------|--4-|
D|--0-------------------|--5-----------|--4-|
A|----------------------|--3-----------|--2-|
E|-------------3--3--3--|-----3--3--3--|----|

E|-------------|-----------|---|
B|-------------|-----------|-5-|
G|-9-----------|-7---------|-5-|
D|-9-----------|-7---------|-5-|
A|-7-----------|-5---------|-3-|
E|-0---0--0--0-|------0--0-|---|

E|--------|--------|---------------|--------------|
B|--------|--------|---------------|--------------|
G|-4----4-|-2----2-|-4-------------|--------------|
D|-2----2-|-3----3-|-2-------------|--------------|
A|-2----2-|-3----3-|-2-------------|--------------|
E|-0----0-|-1----1-|-0----0--0--0--|--2p-0--0--0--|

E|-------------------|------------------|--------------------|
B|--5----------------|------------------|--------------------|
G|--5----------------|------------------|--4----4------------|
D|--5----------------|------------------|--2----2------------|
A|--3----------------|------------------|--2----2------------|
E|-------------------|------------------|--0----0------------|

E|--------|------------------------|--------------------------|
B|--------|------------------------|--------------------------|
G|-2----2-|------------------------|--------------------------|
D|-3----3-|------------------------|--------------------------|
A|-3----3-|-------2--------3-------|--4--------3--------2--2--|
E|-1----1-|-0--1-----0--1-----0--1-|-----0--1-----0--1--------|

E|-------------------|-----------------|-----------------------|
B|-------------------|-----------------|-----------------------|
G|-------------------|---------------4-|-----------------------|
D|-------------------|---------------4-|-----------------------|
A|------2-----3------|-4------3------2-|------2--------3-------|
E|-0--1---0-1---1--0-|---0--1---1--0---|-0--1----0--1-----0--1-|

E|--------------------------|-------------------------|
B|--------------------------|-------------------------|
G|--------------------------|-------------------------|
D|--------------------------|-------------------------|
A|--4--------3--------2--2--|--------2--------3-------|
E|-----0--1-----0--1--------|--0--1-----0--1-----1--0-|

E|--------------------------|-------------------|
B|--------------------------|-------------------|
G|--------------------------|-------------------|
D|--------------------------|-------------------|
A|--5-4-----5-4-----5-4--|--5-4-----5-4-----5-4-|
E|--3-2--0--3-2--0--3-2--|--3-2--0--3-2--0--3-2-|

E||---------------------------|------------------------|
B||---------------------------|------------------------|
G||*--------------------------|------------------------|
D||*--------------------------|------------------------|
A||---------------------------|-----5/-7-----8-7--5/-7-|
E||---0--0--0--0--0--0--0--0--|--0--3/-5--0--6-5--3/-5-|

                                          3x
E|------------------------|-----------------||-----------------|
B|------------------------|-----------------||-----------------|
G|------------------------|----------------*||-----------------|
D|------------------------|----------------*||-----------------|
A|------------------------|----5/-7--5/-7---||-----------------|
E|-0--0--0--0--0--0--0--0-|-0--3/-5--3/-5---||-2-2-2-2-2-2-2-2-|

E|--------------------|------------------------|---------------|
B|--------------------|------------------------|---------------|
G|--------------------|------------------------|---------------|
D|----4--4--5-4--4--4-|------------------------|----4-----4----|
A|----0--2--3-2--0--2-|------------------------|----0h-2--0h-2-|
E|-2------------------|-2--2--2--2--2--2--2--2-|-2-------------|

E|--------------------|---------------|------------------------|
B|--------------------|---------------|------------------------|
G|--------------------|---------------|------------------------|
D|--------------------|---4-4-5-4-4-4-|------------------------|
A|--------------------|---0-2-3-2-0-2-|------------------------|
E|-2-2-2-2-2--2--2--2-|-2-------------|-2--2--2--2--2--2--2--2-|

E|---------------|------------------------||-------------------|
B|---------------|------------------------||-------------------|
G|---------------|-4--4--4--4--4--4--4--4-||*-9-----------7--9-|
D|----4-----4----|-4--4--4--4--4--4--4--4-||*-9-----------7--9-|
A|----0h-2--0h-2-|-2--2--2--2--2--2--2--2-||--7-----------5--7-|
E|-2-------------|------------------------||--0--0--0--0-------|
                                                                              2x
E|---------------------|-------------------|------------------||
B|---------------------|-------------------|------------------||
G|---------------------|-------------------|-------------8---*||
D|-------9-------------|-------------10--9-|-------------8-9-*||
A|-7--9-----10--9h-10~-|-------------10--9-|-------------6-9--||
E|---------------------|-8--8--8--8--8---7-|-8--8--8--8----7--||

E|-------------------|---------------------|-------------------|
B|-------------------|---------------------|-------------------|
G|-9-----------7---9-|---------------------|-------------------|
D|-9-----------7---9-|-------9-------------|-------------10--9-|
A|-7-----------5---7-|-7--9-----10--9h-10~-|-------------10--9-|
E|-0--0--0--0--------|---------------------|-8--8--8--8--8---7-|

E|------------------------|--------------------|---------|
B|------------------------|--------------------|---------|
G|------------------------|--4----4------------|--2----2-|
D|------------------------|--2----2------------|--3----3-|
A|--9--7--6----6----------|--2----2------------|--3----3-|
E|----------------8--7----|--0----0------------|--1----1-|

E|----------------------|--------------|----|
B|----------------------|--------------|--0-|
G|--4-------------------|--------------|--0-|
D|--2-------------------|--------------|--0-|
A|--2-------------------|--------------|--x-|
E|--0----------0--0--0--|--2p-0--0--0--|--3-|

E|----------------------|--------------|----|
B|----------------------|--------------|----|
G|--5-------------------|--------------|--2-|
D|--5-------------------|--4-----------|--2-|
A|--3----------0--0--0--|--2--0--0--0--|--0-|
E|----------------------|--------------|----|

E|--2-------------------|--------------|----|
B|--3-------------------|--------------|--4-|
G|--2-------------------|--------------|--4-|
D|--0-------------------|--5-----------|--4-|
A|----------------------|--3-----------|--2-|
E|-------------3--3--3--|-----3--3--3--|----|

E|----------------------|-------------|----|
B|----------------------|-------------|--5-|
G|--9-------------------|--7----------|--5-|
D|--9-------------------|--7----------|--5-|
A|--7-------------------|--5----------|--3-|
E|--0----------0--0--0--|-------0--0--|----|

E|---------|---------|----------------------|--------------|
B|---------|---------|----------------------|--------------|
G|--4----4-|--2----2-|--4-------------------|--------------|
D|--2----2-|--3----3-|--2-------------------|--------------|
A|--2----2-|--3----3-|--2-------------------|--------------|
E|--0----0-|--1----1-|--0----------0--0--0--|--2p-0--0--0--|

E|---|--------|
B|-5-|--------|
G|-5-|-4----4-|
D|-5-|-2----2-|
A|-3-|-2----2-|
E|---|-0----0-|

E|--------|
B|--------|
G|-2----2-|
D|-3----3-|
A|-3----3-|
E|-1----1-|

E|------------------------|
B|--17------------17--19--|
G|------------------------|
D|------------------------|
A|------------------------|
E|------------------------|

E|--15~---------------15--17----15----------19--15--12h-15p-12--|
B|----------------19------------------19------------------------|
G|--------------------------------------------------------------|
D|--------------------------------------------------------------|
A|--------------------------------------------------------------|
E|--------------------------------------------------------------|

E|----------------------------------------|
B|--13~---------------15r-------15r-------|
G|----------------------------------------|
D|----------------------------------------|
A|----------------------------------------|
E|----------------------------------------|

E|--15--14--------15--14--------------------------------|
B|----------12------------12h-15p-12~-------------------|
G|--------------------------------------------12--14----|
D|------------------------------------------------------|
A|------------------------------------------------------|
E|------------------------------------------------------|

E|--------------------------------|----------------------|
B|--15----15----------------------|----------------------|
G|--14r---14r-----14p-12------12--|----------------------|
D|------------------------14------|--14~-----------12----|
A|--------------------------------|----------------------|
E|--------------------------------|----------------------|

E|--------------------------------------------------------|
B|--------------------------------------------------------|
G|--12------14--12----11----------14----12----11h-12p-11--|
D|--------------------------12----------------------------|
A|--------------------------------------------------------|
E|--------------------------------------------------------|

E|--------------------------------------------|
B|--------------------------------------------|
G|--------------------------------------------|
D|--10~---------------9--10------------9--10--|
A|----------------12--------------------------|
E|--------------------------------------------|

E|--------------------------------------------------15----14----|
B|--------------------------------------12----------------------|
G|--------------------------11----12----------12----------------|
D|--12----10----12----14----------------------------------------|
A|--------------------------------------------------------------|
E|--------------------------------------------------------------|

E|--11h-12p-11--------------19----|--------------------|
B|--------------12----10----------|--17~---------------|
G|--------------------------------|--------------------|
D|--------------------------------|--------------------|
A|--------------------------------|--------------------|
E|--------------------------------|--------------------|

E|----------------------------------|------------------|----------------------|
B|----------------------------------|------------------|----------------------|
G|----------------------------------|------------------|-----------------0----|
D|----------------------------------|------------------|------------2---------|
A|----------------------------------|------------------|-------2--------------|
E|----------------------------------|------------------|--0-------------------|

E|----------------------0h-2p-0------------3----|
B|------------3------------------3--------------|
G|-------2---------2------------------2p---0----|
D|--0-------------------------------------------|
A|----------------------------------------------|
E|----------------------------------------------|

E|------------------------------------------|
B|------------3---------3--------------0----|
G|-------0---------0---------0--------------|
D|--------------------------------2---------|
A|--3---------------------------------------|
E|------------------------------------------|

E|------------------------------------------|----------------------|
B|------------0-------------------0---------|------------0---------|
G|-------2-------------------2--------------|-------2--------------|
D|------------------------------------------|--1-------------------|
A|--0--------------0----2--------------2----|----------------------|
E|------------------------------------------|-----------------3----|

E|----------------------|----------------------0h-2p-0------------3----|
B|----------------------|------------3------------------3--------------|
G|-----------------0----|-------2---------2------------------2p---0----|
D|------------2---------|--0-------------------------------------------|
A|-------2--------------|----------------------------------------------|
E|--0-------------------|----------------------------------------------|

E|------------------------------------------|
B|------------3---------3--------------0----|
G|-------0---------0---------0--------------|
D|--------------------------------2---------|
A|--3---------------------------------------|
E|------------------------------------------|

------------------------------------------|----------------------|
------------0-------------------0---------|------------0---------|
-------2-------------------2--------------|-------2--------------|
------------------------------------------|--1-------------------|
--0--------------0----2--------------2----|----------------------|
------------------------------------------|-----------------3----|

------------------------------------------|
------------------------------------------|
--4----4----4----4----4----4----4----4----|
--2----2----2----2----2----2----2----2----|
--2----2----2----2----2----2----2----2----|
--0----0----0----0----0----0----0----0----|

------------------------------------------|
------------------------------------------|
--4----4----4----4----4----4----4----4----|
--2----2----2----2----2----2----2----2----|
--2----2----2----2----2----2----2----2----|
--0----0----0----0----0----0----0----0----|

|--------------------------------------------|
|--------------------------------------------|
|*-------------------------------------------|
|*-------------------------------------------|
|---4----4----5----4----4----4----5----4--4--|
|---2----2----3----2----2----2----3----------|

------------------------------------------|
------------------------------------------|
------------------------------------------|
-------------------------------------6----|
--4----4----5----4----4----4----5----4----|
--2----2----3----2----2----2----3---------|

-------------------------------------------|
-------------------------------------------|
-------------------------------------------|
-------------------------------------------|
--4----4----5----4----4----4----5----4--4--|
--2----2----3----2----2----2----3----------|

-------------------------------------------||-------------------|
-------------------------------------------||-------------------|
------------------------------------------*||--4----------------|
-------------------------------------6----*||--5----------------|
--4----4----5----4----4----4----5----4-----||--5----------------|
--2----2----3----2----2----2----3----------||--3----------------|

------------------|-------------------|----------------------|
------------------|-------------------|----------------------|
------------------|--3----------------|----------------------|
------------------|--4----------------|----------------------|
------------------|--4----------------|----------------------|
------------------|--2----------------|--x----x----17-------|

--------------------------|--------------------------|
--------------------------|--------------------------|
--------------------------|--------------------------|
--------------------------|--------------------------|
--------------------------|-----5/-7-----8-7--5/-7--|
--0--0--0--0--0--0--0--0--|--0--3/-5--0--6-5--3/-5--|

--------------------------|-----------------|--------------------------|
--------------------------|-----------------|--------------------------|
--------------------------|-----------------|--------------------------|
--------------------------|-----------------|--------------------------|
--------------------------|-----5/-7--5/-7--|--------------------------|
--0--0--0--0--0--0--0--0--|--0--3/-5--3/-5--|--0--0--0--0--0--0--0--0--|

--------------------------|--------------------------|-----------------|
--------------------------|--------------------------|-----------------|
--------------------------|--------------------------|-----------------|
--------------------------|--------------------------|-----------------|
-----5/-7-----8-7--5/-7--|--------------------------|-----5/-7--5/-7--|
--0--3/-5--0--6-5--3/-5--|--0--0--0--0--0--0--0--0--|--0--3/-5--3/-5--|

--------------------------|--------------------------|
--------------------------|--------------------------|
--------------------------|--------------------------|
--------------------------|--------------------------|
--------------------------|-----5/-7-----8-7--5/-7--|
--0--0--0--0--0--0--0--0--|--0--3/-5--0--6-5--3/-5--|

--------------------------|-----------------|--------------------------|
--------------------------|-----------------|--------------------------|
--------------------------|-----------------|--------------------------|
--------------------------|-----------------|--------------------------|
--------------------------|-----5/-7--5/-7--|--------------------------|
--0--0--0--0--0--0--0--0--|--0--3/-5--3/-5--|--0--0--0--0--0--0--0--0--|

--------------------------|--------------------------|-----------------|
--------------------------|--------------------------|-----------------|
--------------------------|--------------------------|-----------------|
--------------------------|--------------------------|-----------------|
-----5/-7-----8-7--5/-7--|--------------------------|-----5/-7--5/-7--|
--0--3/-5--0--6-5--3/-5--|--0--0--0--0--0--0--0--0--|--0--3/-5--3/-5--|

--------------------------|-------------------------|--------------------------|
--------------------------|-------------------------|--------------------------|
--------------------------|-------------------------|--------------------------|
--------------------------|-----4--4----5-4--4--4--|--------------------------|
--------------------------|-----0--2----3-2--0--2--|--------------------------|
--2--2--2--2--2--2--2--2--|--2----------------------|--2--2--2--2--2--2--2--2--|

-----------------|--------------------------|-------------------------|
-----------------|--------------------------|-------------------------|
-----------------|--------------------------|-------------------------|
-----4-----4-----|--------------------------|-----4--4----5-4--4--4--|
-----0h-2--0h-2--|--------------------------|-----0--2----3-2--0--2--|
--2--------------|--2--2--2--2--2--2--2--2--|--2----------------------|

--------------------------|-----------------|--------------------------|
--------------------------|-----------------|--------------------------|
--------------------------|-----------------|--4--4--4--4--4--4--4--4--|
--------------------------|-----4-----4-----|--4--4--4--4--4--4--4--4--|
--------------------------|-----0h-2--0h-2--|--2--2--2--2--2--2--2--2--|
--2--2--2--2--2--2--2--2--|--2--------------|--------------------------|

|---------------------------|--------------------------|
|---------------------------|--------------------------|
|*--------------------------|--------------------------|
|*--------3--------3--------|--3--------3--------2--2--|
|---------3--------3--------|--3--------3--------------|
|---0--0--1--0--0--1--0--0--|--1--0--0--1--0--0--------|

--------------------------|--------------------------||
--------------------------|--------------------------||
--------------------------|-------------------------*||
--------3--------3--------|--3--------3--------4----*||
--------3--------3--------|--3--------3--------2-----||
--0--0--1--0--0--1--0--0--|--1--0--0--1--0--0--------||

--------------------------||---------------------------|-----------------------|
--------------------------||---------------------------|-----------------------|
--------------------------||*--------------------------|-----------------------|
--------------------------||*-----------------------2--|--4--5-----------------|
--2--2--2--2--2--2--2--2--||---------------2--3--5-----|--------3----------3-3-|
--0--0--0--0--0--0--0--0--||---0--2--3--5--------------|-----------------------|

--------------------------|----------------------------||
--------------------------|----------------------------||
--------------------------|---------------------------*||
--------------------------|---------------------------*||
--3--2--3--5--3--2--------|----------------------------||
--------------------3--2--|--0--0--0--0--0--0--0--0-0--||

--------------------------|-----------------------|--------------------------|
--------------------------|-----------------------|--------------------------|
--------------------------|--2--4-----------------|--------------------------|
--------------------4--5--|--------2----------2-2-|--2--0--2--4--2--0--------|
--------------2--3--------|-----------------------|--------------------3--2--|
--0--2--3--5--------------|-----------------------|--------------------------|

---------------------------|------------------------|-----------------------|
---------------------------|------------------------|--------5--------------|
---------------------------|------------------------|--2--4--5--------------|
---------------------------|------------------4--5--|--------5--------------|
---------------------------|------------------------|--------3----------3-3-|
--0--0--0--0--0--0--0--0-0-|--0--2--3--5------------|-----------------------|

--------------------------|---------------------|--------------------------|
--------------------------|---------------------|--------------------------|
--------------------------|--4------------------|-----------2--------------|
--------------------------|--2--------------5-5-|--5--4--5-----5--4--2--4--|
--3--2--3--5--3--2--------|--2--------------3-3-|--------------------------|
--------------------3--2--|--0------------------|--------------------------|

|---------------------------|--------------------------|
|---------------------------|--------------------------|
|*--------------------------|--------------------------|
|*--------------------------|--------------------------|
|---------2--------3--------|--4--------3--------2--2--|
|---0--1-----0--1-----0--1--|-----0--1-----0--1--------|

--------------------------|---------------------------||
--------------------------|---------------------------||
--------------------------|--------------------------*||
--------------------------|--------------------------*||
--------2--------3--------|--5-4-----5-4-----5-4---||
--0--1-----0--1-----1--0--|--3-2--0--3-2--0--3-2---||

----------------------||---------------------------|
----------------------||---------------------------|
----------------------||*--------------------------|
----------------------||*--------------------------|
--5-4-----5-4-----5-4-||---------------------------|
--3-2--0--3-2--0--3-2-||---0--0--0--0--0--0--0--0--|

                                                                X3
-----------------------|------------------------|-----------------||
-----------------------|------------------------|-----------------||
-----------------------|------------------------|----------------*||
-----------------------|------------------------|----------------*||
----5/-7-----8-7--5/-7-|------------------------|----5/-7--5/-7---||
-0--3/-5--0--6-5--3/-5-|-0--0--0--0--0--0--0--0-|-0--3/-5--3/-5---||

--------------------------|-------------------------|--------------------------|
--------------------------|-------------------------|--------------------------|
--------------------------|-------------------------|--------------------------|
--------------------------|-----4--4----5-4--4--4--|--------------------------|
--------------------------|-----0--2----3-2--0--2--|--------------------------|
--2--2--2--2--2--2--2--2--|--2----------------------|--2--2--2--2--2--2--2--2--|

-----------------|--------------------------|-------------------------|
-----------------|--------------------------|-------------------------|
-----------------|--------------------------|-------------------------|
-----4-----4-----|--------------------------|-----4--4----5-4--4--4--|
-----0h-2--0h-2--|--------------------------|-----0--2----3-2--0--2--|
--2--------------|--2--2--2--2--2--2--2--2--|--2----------------------|

--------------------------|-----------------|--------------------------|
--------------------------|-----------------|--------------------------|
--------------------------|-----------------|--4--4--4--4--4--4--4--4--|
--------------------------|-----4-----4-----|--4--4--4--4--4--4--4--4--|
--------------------------|-----0h-2--0h-2--|--2--2--2--2--2--2--2--2--|
--2--2--2--2--2--2--2--2--|--2--------------|--------------------------|

|-------------------------|--------------------------|-------------------------|
|-------------------------|--------------------------|-------------------------|
|*--9-----------7----9----|--------------------------|-------------------------|
|*--9-----------7----9----|--------9-----------------|--------------10----9----|
|---7-----------5----7----|--7--9-----10--9h-10~-----|--------------10----9----|
|---0--0--0--0------------|--------------------------|--8--8--8--8--8-----7----|

                         2x
-------------------------||------------------------|--------------------------|
-------------------------||------------------------|--------------------------|
--------------8---------*||--9-----------7----9----|--------------------------|
--------------8----9----*||--9-----------7----9----|--------9-----------------|
--------------6----9-----||--7-----------5----7----|--7--9-----10--9h-10~-----|
--8--8--8--8-------7-----||--0--0--0--0------------|--------------------------|

-------------------------|------------------------|--------------------|
-------------------------|------------------------|--------------------|
-------------------------|------------------------|--4----4------------|
--------------10----9----|------------------------|--2----2------------|
--------------10----9----|--9--7--6----6----------|--2----2------------|
--8--8--8--8--8-----7----|----------------8--7----|--0----0------------|

--------------------|----------------------|--------------|-------------------|
--------------------|----------------------|--------------|--0----------------|
--2----2------------|--4-------------------|--------------|--0----------------|
--3----3------------|--2-------------------|--------------|--0----------------|
--3----3------------|--2-------------------|--------------|--x----------------|
--1----1------------|--0----------0--0--0--|--2p-0--0--0--|--3----------------|

------------------|----------------------|--------------|-------------------|
------------------|----------------------|--------------|-------------------|
------------------|--5-------------------|--------------|--2----------------|
------------------|--5-------------------|--4-----------|--2----------------|
------------------|--3----------0--0--0--|--2--0--0--0--|--0----------------|
------------------|----------------------|--------------|-------------------|

------------------|--2-------------------|--------------|-------------------|
------------------|--3-------------------|--------------|--4----------------|
------------------|--2-------------------|--------------|--4----------------|
------------------|--0-------------------|--5-----------|--4----------------|
------------------|----------------------|--3-----------|--2----------------|
------------------|-------------3--3--3--|-----3--3--3--|-------------------|

----------------------|-------------|-------------------|----------|
----------------------|-------------|--5----------------|----------|
--9-------------------|--7----------|--5----------------|----------|
--9-------------------|--7----------|--5----------------|----------|
--7-------------------|--5----------|--3----------------|----------|
--0----------0--0--0--|-------0--0--|-------------------|----------|

--------------------|--------------------|----------------------|--------------|
--------------------|--------------------|----------------------|--------------|
--4----4------------|--2----2------------|--4-------------------|--------------|
--2----2------------|--3----3------------|--2-------------------|--------------|
--2----2------------|--3----3------------|--2-------------------|--------------|
--0----0------------|--1----1------------|--0----------0--0--0--|--2p-0--0--0--|

-------------------|------------------|--------------------|
--5----------------|------------------|--------------------|
--5----------------|------------------|--4----4------------|
--5----------------|------------------|--2----2------------|
--3----------------|------------------|--2----2------------|
-------------------|------------------|--0----0------------|

--------------------||---------------------------|--------------------------|
--------------------||---------------------------|--------------------------|
--2----2------------||*--------------------------|--------------------------|
--3----3------------||*--------------------------|--------------------------|
--3----3------------||---------------------------|-----5/-7-----8/-7--5/-7--|
--1----1------------||---0--0--0--0--0--0--0--0--|--0--3/-5--0--6/-5--3/-5--|

--------------------------|------------------||------------------|
--------------------------|------------------||------------------|
--------------------------|-----------------*||------------------|
--------------------------|-----------------*||------------------|
--------------------------|-----5--7--5--7---||------------------|
--0--0--0--0--0--0--0--0--|--0--3/-5--3/-5---||------------------|

--------------------------|-------------------||
--------------------------|-------------------||
--------------------------|--4----------------||
--------------------------|--2----------------||
--5-4-----5-4-----5-4--|--2----------------||
--3-2--0--3-2--0--3-2--|--0----------------||

Оцените качество подборки аккордов:
1 Star2 Stars3 Stars4 Stars5 Stars (No Ratings Yet)
Загрузка...
guitarist @ 04:31

Нет комментариев, станьте первым

Leave a comment

(required)

(required)




RSS Feed for comments | TrackBack URI

Instruction for comments :

You can use these tags:
XHTML: <a href="" title=""> <abbr title=""> <acronym title=""> <b> <blockquote cite=""> <cite> <code> <del datetime=""> <em> <i> <q cite=""> <s> <strike> <strong>