а так же табы известных мелодий для шестиструнной гитары
Аккорды Rammstein — Klavier
Filed under: Аккорды andТекст
Теги: ,

Дополнительно

P. Lucantoni - KET (Key English Test) Practice Tests Plus Revised Edition Teacher’s Book, 2003 год
store.cross-roads.ru
Видеосеминар «Место распространения товаров (Place)»
soft.masterit.ru
Основной пакет фотопрограмм
soft.masterit.ru

Rammstein - Klavier

Standard Tuning

Intro:
Eb|-----5---------------------------|
Bb|-------------8-------6---8---5---|
Gb|---5---5---5---5---5-------------|
Db|-7-------7-------7-----7---7-----|
Ab|---------------------------------|
Eb|---------------------------------|
   (0:08)Sie sagen zu mir
Eb|-----5---------------------------|
Bb|-------------8-------6---8---5---|
Gb|---5---5---5---5---5-------------|
Db|-7-------7-------7-----7---7-----|
Ab|---------------------------------|
Eb|---------------------------------|

Eb|-----3---------------------------|
Bb|-------------6-------5---6---5---|
Gb|---5---5---5---5---5-------------|
Db|-3-------3-------3-----3---3-----|
Ab|---------------------------------|
Eb|---------------------------------|

Eb|-----3-------2-------------------|
Bb|---------------------5-------5p3-|
Gb|---4---4---4---4---4---4---4-----|
Db|-2-------2-------2-------2-------|
Ab|---------------------------------|
Eb|---------------------------------|

Riff 1(a)
w/Heavy Metal Distortion
Tremolo Picking

Eb|--------------------------------------|
Bb|--------------------------------------|
Gb|-------------777777777777777777777----|
Db|-88888888888-777777777777777777777----|
Ab|-88888888888-555555555555555555555----|
Eb|-66666666666--------------------------|
(0:57) Dort Dam Klavier

Riff 1(b)
Eb|---------------------------------------|
Bb|---------------------------------------|
Gb|-8888888888888-55555555555555555555555-|
Db|-8888888888888-55555555555555555555555-|
Ab|-6666666666666-33333333333333333333333-|
Eb|---------------------------------------|
    Hielt Ich den Atem Man

Riff 2(a)
w/Heavy Metal Distortion
Tremolo Picking

Eb|--------------------------------------------|
Bb|--------------------------------------------|
Gb|--------------------------------------------|
Db|---9999999999999999999-7777777777777777777--|
Ab|---9999999999999999999-7777777777777777777--|
Eb|-0-7777777777777777777-5555555555555555555--|
 (2:26)

Eb|---------------------------------------------------|
Bb|---------------------------------------------------|
Gb|---------------------------------------------------|
Db|-999999-1010101010101010-777777777777777777-2~~~~--|
Ab|-999999-1010101010101010-777777777777777777-2~~~~--|
Eb|-777777-8888888888888888-555555555555555555-0~~~~~-|

Bb|--12-10-12~~~--------------------------------------|

Sie sagen zu mir
schliess auf diese Tur
die Neugier wird zum Schrei
was wohl dahinter sei
hinter dieser Tur
steht ein Klavier
die Tasten sind staubig
die Saiten sind verstimmt
hinter dieser Tur
sitzt sie am Klavier
doch sie spielt nicht mehr
ach das ist so lang her

dort am Klavier
lauschte ich ihr
und wenn ihr Spiel begann
hielt ich den Atem an

Sie sagte zu mir
ich bleib immer bei dir
doch es hatte nur den Schein
sie spielte fur mich allein
ich goss ihr Blut
ins Feuer meiner Wut
ich verschloss die Tur
man fragte nach ihr

Dort am Klavier
lauschte ich ihr
und wenn ihr Spiel begann
hielt ich den Atem an
dort am Klavier
stand ich bei ihr
es hatte den Schein
sie spielte fur mich allein

Geoffnet ist die Tur
ei wie sie schreien
ich hore die Mutter flehen
der Vater schlagt auf mich ein
man lost sie vom Klavier
und niemand glaubt mir hier
Оцените качество подборки аккордов:
1 Star2 Stars3 Stars4 Stars5 Stars (No Ratings Yet)
Загрузка...
guitarist @ 03:59

Нет комментариев, станьте первым

Leave a comment

(required)

(required)




RSS Feed for comments | TrackBack URI

Instruction for comments :

You can use these tags:
XHTML: <a href="" title=""> <abbr title=""> <acronym title=""> <b> <blockquote cite=""> <cite> <code> <del datetime=""> <em> <i> <q cite=""> <s> <strike> <strong>